forums.grahamcoxon.co.uk Forum Index forums.grahamcoxon.co.uk
Happiness in A+E
 
 FAQFAQ   SearchSearch   MemberlistMemberlist   UsergroupsUsergroups   RegisterRegister 
 ProfileProfile   Log in to check your private messagesLog in to check your private messages   Log inLog in 

Caspian Sea tab

 
Post new topic   Reply to topic    forums.grahamcoxon.co.uk Forum Index -> Albums
View previous topic :: View next topic  
Author Message
kae



Joined: 02 Nov 2005
Posts: 66
Location: in front of my puter

PostPosted: Sat Oct 09, 2010 8:48 pm    Post subject: Caspian Sea tab Reply with quote

Bronwyn's asked me to write a simple-to-play version of Caspian Sea for the guitar.

here's the tab.

Code:
Caspian Sea, by Graham Coxon
arranged by Kae Verens (kae@verens.com)

|-0---3---3-------|-1---0-----------|-0---3---3-------|-1---0-----------|
|---------1-0-----|---------3-------|---------1-0-----|---------3-------|
|-------------2-0-|-----0-----------|-------------2-0-|-----0-----------|
|-----------------|-3-------0-------|-----------------|-3-------0-------|
|-3---------------|-----------------|-3---------------|-----------------|
|-----------------|-----------------|-----------------|-----------------|

|-0---0-----------|-1---0-----------|-0---0-----------|-1---0-----------|
|-------3-5-3-1---|---------3-------|-------3-5-3-1---|---------3-------|
|---------5-4-2-0-|-----0---4-------|---------5-4-2-0-|-----0---4-------|
|-----------------|-3---------------|-----------------|-3---------------|
|-3---------------|-----------------|-3---------------|-----------------|
|-----------------|-----------------|-----------------|-----------------|

|-0---3---3-------|-1---3---3-------|-----------------|-----------------|
|-----------------|-----------------|-----------------|-----------------|
|-------------0-2-|-------0-0-------|-3-------0-------|-3-------0-------|
|-2---------------|-3---3-----------|-----------------|-----------------|
|-----------------|-----------------|-----------------|-----------------|
|-----------------|-----------------|-----------------|-----------------|

|-----------------|---------|-----------------|-----------------|
|-----------------|---------|-1------1--------|-1------1--------|
|-3---------------|-0-------|-----------------|-----------------|
|--------3--------|---------|-----------------|-----------------|
|-----------------|---------|-----------------|-3------3--------|
|-----------------|---------|-----------------|-----------------|
Back to top
View user's profile Send private message Send e-mail Visit poster's website
Display posts from previous:   
Post new topic   Reply to topic    forums.grahamcoxon.co.uk Forum Index -> Albums All times are GMT
Page 1 of 1

 
Jump to:  
You cannot post new topics in this forum
You cannot reply to topics in this forum
You cannot edit your posts in this forum
You cannot delete your posts in this forum
You cannot vote in polls in this forum


Powered by phpBB 2001, 2002 phpBB Group