forums.grahamcoxon.co.uk Forum Index forums.grahamcoxon.co.uk
Happiness in A+E
 
 FAQFAQ   SearchSearch   MemberlistMemberlist   UsergroupsUsergroups   RegisterRegister 
 ProfileProfile   Log in to check your private messagesLog in to check your private messages   Log inLog in 

Hard + Slow

 
Post new topic   Reply to topic    forums.grahamcoxon.co.uk Forum Index -> Tabs
View previous topic :: View next topic  
Author Message
SpiderMonkey



Joined: 13 Jul 2004
Posts: 341
Location: KiwiLand

PostPosted: Sun Mar 27, 2011 6:49 am    Post subject: Hard + Slow Reply with quote

Hi all!

I only wrote out this tab as there doesn't seem to be one floating around online, which is a bit of a shame because it's quite a cool song to play. Figured if anyone would appreciate it, it would be the GC fans of this site. So have used the missus login.

I have to confess that I'm pretty crap at writing out tab, and that I had to use Guitar Pro 5 to assist and "fill in the gaps". As such please consider this more of a guide rather than a note for note rendition. It assumes you already actually know the song so you'll have a sense of the strumming and rhythm (the sort of stuff you just can't write into tab).

Also, can't really vouch for it being 100% correct either, not least because of the unusal tuning. But this tuning was the only way I could play it and make it work, and it sounds pretty bang on to my ears. That been said, if anyone knows the 'proper' way to play it and/or have any suggestions for corrections please let me know!

This version is an ASCII export direct from Guitar Pro 5, so it can be a bit of a mission to read it right. Alternately I also have a PDF version (that's MUCH easier to understand!) and the GP5 file if anyone wants it.

Email: mikee_cez@yahoo.co.nz


Tuning:
e
C
F#
D
A
D
(Capo 3 - Tab is written in relation to capo position)

Duration Legend:
W - whole
H - half
Q - quarter
E - 8th

Tablature Legend:
(n) - ghost note
S - shift slide


Code:

     E  E  E  E  E  E  E  E     E  E  E  E  E  E  E  E     E  E  E  E  E  E  E  E     E  E  E  E  E  E  E  E   
||---------------------------|--------------------------|--------------------------|--------------------------|
||------------0-----------0--|-----------0--------------|-----------0-----------0--|-----------0--------------|
||------5-----6-----5-----6--|-----5-----6-----5-----5--|-----5-----6-----5-----6--|-----5-----6-----5-----5--|
||---4--4--4--4--4--4--4--4--|--4--4--4--4--4--4--4--4--|--3--3--3--3--3--3--3--3--|--3--3--3--3--3--3--3--3--|
||---0--0--0--0--0--0--0--0--|--0--0--0--0--0--0--0--0--|--0--0--0--0--0--0--0--0--|--0--0--0--0--0--0--0--0--|
||---0--0--0--0--0--0--0--0--|--0--0--0--0--0--0--0--0--|--------------------------|--------------------------|


  E  Q    E  Q    E  E     Q    E  E  Q    E  E     E  Q    E  Q    E  E     Q    E  E  Q    E  E   
------------------------|------------------------|------------------------|------------------------|
------------------------|------------------------|------------------------|------------------------|
--5--3------------------|------------------------|--5--3------------------|------------------------|
--5--4----4--4----4--4--|--4----4--4--4----4--4--|--5--4----4--4----4--4--|--4----4--4--4----4--4--|
--0--0----0--0----0--0--|--0----0--0--0----0--0--|--0--0----0--0----0--0--|--0----0--0--0----0--0--|
--0--0----0--0----0--0--|--0----0--0--0----0--0--|--0--0----0--0----0--0--|--0----0--0--0----0--0--|

     
  Q     E  E  Q    E  E      Q     E   E   E   E   Q        E   E   E   E   Q     E   E     Q    E  E  E    Q    E   
-------------------------|------------------------------|--------------------------------|--------------------------|
-------------------------|------------------------------|--------------------------------|--------------------------|
--0-----------0----------|---0---------0-----------0----|-------0-----------0------------|-------------0----0-------|
--4-----4--4--5----5--5S-|--11----11--11--11--11--11----|--11--11--11--11--11----11--11--|--0----0--0--5----4----4--|
--5-----5--5--7----7--7S-|--12----12--12--12--12--12----|--12--12--12--12--12----12--12--|--0----0--0--7----5----5--|
--0-----0--0--0----0--0--|---0-----0---0---0---0---0----|---0---0---0---0---0-----0---0--|--0----0--0--0----0----0--|
  Treat       me             hard                                                           and        slow     


  E  E  E  E  Q     E  E      Q     E   E   E   E   Q        E   E   E   E   Q     E   E     Q    E  E  E  Q    E   
--------------------------|------------------------------|--------------------------------|------------------------|
--------------------------|------------------------------|--------------------------------|------------------------|
--------------0-----------|---0---------0-----------0----|-------0-----------0------------|-------------0--0-------|
--4--4--4--4--5-----5--5S-|--11----11--11--11--11--11----|--11--11--11--11--11----11--11--|--0----0--0--5--4----4--|
--5--5--5--5--7-----7--7S-|--12----12--12--12--12--12----|--12--12--12--12--12----12--12--|--0----0--0--7--5----5--|
--0--0--0--0--0-----0--0--|---0-----0---0---0---0---0----|---0---0---0---0---0-----0---0--|--0----0--0--0--0----0--|
              Don't           let                                                            me         go         


  E  E  Q    E  E  E  E     Q    E  E  Q    E  E     E  E  Q    E  E  E  E     Q    Q    Q         E  E   
-------------------------|------------------------|-------------------------|----------------------------|
-------------------------|------------------------|-------------------------|----------------------------|
--------0----------------|--0----------0----------|--------0----------------|--6---------5------------5--|
--4--4--4----4--4--4--4--|--4----4--4--4----4--4--|--4--4--4----4--4--4--4--|--3----0----5---------5--5--|
--5--5--5----5--5--5--5--|--5----5--5--5----5--5--|--5--5--5----5--5--5--5--|--3----0----5---------5--5--|
--0--0--0----0--0--0--0--|--0----0--0--0----0--0--|--0--0--0----0--0--0--0--|--3----0----5---------5--5--|
                                                                                         Oooo..... 
     
   
  E  E  Q    E  E  E  E     Q    Q    Q    E  E     E  E  Q    E  E  E  E     Q    E  E  Q         E  E   
-------------------------|-----------------------|-------------------------|-----------------------------|
-------------------------|-----------------------|-------------------------|-----------------------------|
--------5-------5--------|--5----5----0-------0--|--------0-------0--------|--0----------7------------7--|
--5--5--5----5--5--5--5--|--5----7----0----0--0--|--0--0--0----0--0--0--0--|--0----0--0--7---------7--7--|
--5--5--5----5--5--5--5--|--5----5----0----0--0--|--0--0--0----0--0--0--0--|--0----0--0--7---------7--7--|
--5--5--5----5--5--5--5--|--5----5----0----0--0--|--0--0--0----0--0--0--0--|--0----0--0--7---------7--7--|
                                                                                         Oooo.....   

     
  E  E  Q    E  E  E  E     Q    Q    Q    E  E     E  E  Q    E  E  E  E     Q    E  E  E         E  E  E   
-------------------------|-----------------------|-------------------------|--------------------------------|
-------------------------|-----------------------|-------------------------|--------------------------------|
--------7-------7--------|--5----5----0-------0--|--------0-------0--------|--0----------5---------5-----5--|
--7--7--7----7--7--7--7--|--5----5----0----0--0--|--0--0--0----0--0--0--0--|--0----0--0--5---------5--5--5--|
--7--7--7----7--7--7--7--|--5----5----0----0--0--|--0--0--0----0--0--0--0--|--0----0--0--5---------5--5--5--|
--7--7--7----7--7--7--7--|--5----5----0----0--0--|--0--0--0----0--0--0--0--|--0----0--0--5---------5--5--5--|
                                                                                         Oooo.....     


  E  E  Q    E  E  E  E     Q    E  E  Q    Q       Q    E  E  E  E  Q       E  E  E  E  Q    E  E   
-------------------------|-----------------------|------------------------|-------------------------|
-------------------------|-----------------------|------------------------|-------------------------|
--------5-------5--------|--5----------5----5----|--0-------0--------0----|-----0--------0----------|
--5--5--5----5--5--5--5--|--5----5--5--5----7----|--0----0--0--0--0--0----|--0--0--0--0--0----0--0--|
--5--5--5----5--5--5--5--|--5----5--5--5----5----|--0----0--0--0--0--0----|--0--0--0--0--0----0--0--|
--5--5--5----5--5--5--5--|--5----5--5--5----5----|--0----0--0--0--0--0----|--0--0--0--0--0----0--0--|

                                                                                             
  Q         E  E  E  E  Q       E  E  E  E  Q    Q       Q    E  E  E  E  Q       E  E  E  E  Q    E  E   
-----------------------------|------------------------|------------------------|-------------------------|
-----------------------------|------------------------|------------------------|-------------------------|
--7------------7--------7----|-----7--------5----5----|--3-------3--------3----|-----3--------3----------|
--7---------7--7--7--7--7----|--7--7--7--7--5----5----|--0----0--0--0--0--0----|--0--0--0--0--0----0--0--|
--7---------7--7--7--7--7----|--7--7--7--7--5----5----|--0----0--0--0--0--0----|--0--0--0--0--0----0--0--|
--7---------7--7--7--7--7----|--7--7--7--7--5----5----|--0----0--0--0--0--0----|--0--0--0--0--0----0--0--|
  Oooo.....


  Q    E  E   E  E  E   E       Q    E  E   E   E  E  E     Q    E  E  E  E  Q       E  E  E  E  Q    E  E   
--0-------0------0-----------|--0-------0-------0--------|--9-------9--------9----|-----9--------9----------|
--2-------2S-----4-----(4)S--|--6-------6S------9--------|--9-------9--------9----|-----9--------9----------|
--3-------3S-----5-----(5)S--|--8-------8S-----10--------|--7----7--7--7--7--7----|--7--7--7--7--7----------|
--0----0--0---0--0--0---0----|--0----0--0---0---0--0--0--|--0----0--0--0--0--0----|--0--0--0--0--0----0--0--|
--0----0--0---0--0--0---0----|--0----0--0---0---0--0--0--|--0----0--0--0--0--0----|--0--0--0--0--0----0--0--|
--0----0--0---0--0--0---0----|--0----0--0---0---0--0--0--|--0----0--0--0--0--0----|--0--0--0--0--0----0--0--|


  Q    E  E   E  E  E   E       Q    E  E   E   E  E  E     Q    E  E  E  E  Q       E  E  E  E  Q    E  E   
--0-------0------0-----------|--0-------0-------0--------|--9-------9--------9----|-----9--------9----------|
--2-------2S-----4-----(4)S--|--6-------6S------9--------|--9-------9--------9----|-----9--------9----------|
--3-------3S-----5-----(5)S--|--8-------8S-----10--------|--7----7--7--7--7--7----|--7--7--7--7--7----------|
--0----0--0---0--0--0---0----|--0----0--0---0---0--0--0--|--0----0--0--0--0--0----|--0--0--0--0--0----0--0--|
--0----0--0---0--0--0---0----|--0----0--0---0---0--0--0--|--0----0--0--0--0--0----|--0--0--0--0--0----0--0--|
--0----0--0---0--0--0---0----|--0----0--0---0---0--0--0--|--0----0--0--0--0--0----|--0--0--0--0--0----0--0--|


  E  E  E  E  E  E  E  E     E  E  E  E  E  E  E  E     E  E  E  E  E  E  E  E     E  E  E  E  E  E  E  E   
--------------------------|--------------------------|--------------------------|--------------------------|
-----------0-----------0--|-----------0--------------|-----------0-----------0--|-----------0--------------|
-----5-----6-----5-----6--|-----5-----6-----5-----5--|-----5-----6-----5-----6--|-----5-----6-----5-----5--|
--4--4--4--4--4--4--4--4--|--4--4--4--4--4--4--4--4--|--3--3--3--3--3--3--3--3--|--3--3--3--3--3--3--3--3--|
--0--0--0--0--0--0--0--0--|--0--0--0--0--0--0--0--0--|--0--0--0--0--0--0--0--0--|--0--0--0--0--0--0--0--0--|
--0--0--0--0--0--0--0--0--|--0--0--0--0--0--0--0--0--|--------------------------|--------------------------|


  E  Q    E  Q    E  E     Q    E  E  Q    E  E     E  Q    E  Q    E  E     Q    E  E  Q    E  E   
------------------------|------------------------|------------------------|------------------------|
------------------------|------------------------|------------------------|------------------------|
--5--3------------------|------------------------|--5--3------------------|------------------------|
--5--4----4--4----4--4--|--4----4--4--4----4--4--|--5--4----4--4----4--4--|--4----4--4--4----4--4--|
--0--0----0--0----0--0--|--0----0--0--0----0--0--|--0--0----0--0----0--0--|--0----0--0--0----0--0--|
--0--0----0--0----0--0--|--0----0--0--0----0--0--|--0--0----0--0----0--0--|--0----0--0--0----0--0--|

     
  Q     E  E  Q    E  E      Q     E   E   E   E   Q        E   E   E   E   Q     E   E     Q    E  E  E       Q    E   
-------------------------|------------------------------|--------------------------------|-----------------------------|
-------------------------|------------------------------|--------------------------------|-----------------------------|
--0-----------0----------|---0---------0-----------0----|-------0-----------0------------|-------------0-------0-------|
--4-----4--4--5----5--5S-|--11----11--11--11--11--11----|--11--11--11--11--11----11--11--|--0----0--0--5-------4----4--|
--5-----5--5--7----7--7S-|--12----12--12--12--12--12----|--12--12--12--12--12----12--12--|--0----0--0--7-------5----5--|
--0-----0--0--0----0--0--|---0-----0---0---0---0---0----|---0---0---0---0---0-----0---0--|--0----0--0--0-------0----0--|
  Strip       me             of                                                             my         clothes   


  E  E  E  E  Q    E  E      Q     E   E   E   E   Q        E   E   E   E   Q     E   E     Q    E  E  E    Q    E   
-------------------------|------------------------------|--------------------------------|--------------------------|
-------------------------|------------------------------|--------------------------------|--------------------------|
--------------0----------|---0---------0-----------0----|-------0-----------0------------|-------------0----0-------|
--4--4--4--4--5----5--5S-|--11----11--11--11--11--11----|--11--11--11--11--11----11--11--|--0----0--0--5----4----4--|
--5--5--5--5--7----7--7S-|--12----12--12--12--12--12----|--12--12--12--12--12----12--12--|--0----0--0--7----5----5--|
--0--0--0--0--0----0--0--|---0-----0---0---0---0---0----|---0---0---0---0---0-----0---0--|--0----0--0--0----0----0--|
              Kiss           hard                                                           and        slow         


  E  E  Q    E  E  E  E     Q    E  E  Q    E  E     E  E  Q    E  E  E  E     Q    Q    Q         E  E   
-------------------------|------------------------|-------------------------|----------------------------|
-------------------------|------------------------|-------------------------|----------------------------|
--------0----------------|--0----------0----------|--------0----------------|--6---------5------------5--|
--4--4--4----4--4--4--4--|--4----4--4--4----4--4--|--4--4--4----4--4--4--4--|--3----0----5---------5--5--|
--5--5--5----5--5--5--5--|--5----5--5--5----5--5--|--5--5--5----5--5--5--5--|--3----0----5---------5--5--|
--0--0--0----0--0--0--0--|--0----0--0--0----0--0--|--0--0--0----0--0--0--0--|--3----0----5---------5--5--|
                                                                                         Oooo.....       

   
  E  E  Q    E  E  E  E     Q    Q    Q    E  E     E  E  Q    E  E  E  E     Q    E  E  Q         E  E   
-------------------------|-----------------------|-------------------------|-----------------------------|
-------------------------|-----------------------|-------------------------|-----------------------------|
--------5-------5--------|--5----5----0-------0--|--------0-------0--------|--0----------7------------7--|
--5--5--5----5--5--5--5--|--5----7----0----0--0--|--0--0--0----0--0--0--0--|--0----0--0--7---------7--7--|
--5--5--5----5--5--5--5--|--5----5----0----0--0--|--0--0--0----0--0--0--0--|--0----0--0--7---------7--7--|
--5--5--5----5--5--5--5--|--5----5----0----0--0--|--0--0--0----0--0--0--0--|--0----0--0--7---------7--7--|
                                                                                         Oooo.....     

         
  E  E  Q    E  E  E  E     Q    Q    Q    E  E     E  E  Q    E  E  E  E     Q    E  E  E         E  E  E   
-------------------------|-----------------------|-------------------------|--------------------------------|
-------------------------|-----------------------|-------------------------|--------------------------------|
--------7-------7--------|--5----5----0-------0--|--------0-------0--------|--0----------5---------5-----5--|
--7--7--7----7--7--7--7--|--5----5----0----0--0--|--0--0--0----0--0--0--0--|--0----0--0--5---------5--5--5--|
--7--7--7----7--7--7--7--|--5----5----0----0--0--|--0--0--0----0--0--0--0--|--0----0--0--5---------5--5--5--|
--7--7--7----7--7--7--7--|--5----5----0----0--0--|--0--0--0----0--0--0--0--|--0----0--0--5---------5--5--5--|
                                                                                         Oooo..... 


  E  E  Q    E  E  E  E     Q    E  E  Q    Q       Q    E  E  E  E  Q       E  E  E  E  Q    E  E   
-------------------------|-----------------------|------------------------|-------------------------|
-------------------------|-----------------------|------------------------|-------------------------|
--------5-------5--------|--5----------5----5----|--0-------0--------0----|-----0--------0----------|
--5--5--5----5--5--5--5--|--5----5--5--5----7----|--0----0--0--0--0--0----|--0--0--0--0--0----0--0--|
--5--5--5----5--5--5--5--|--5----5--5--5----5----|--0----0--0--0--0--0----|--0--0--0--0--0----0--0--|
--5--5--5----5--5--5--5--|--5----5--5--5----5----|--0----0--0--0--0--0----|--0--0--0--0--0----0--0--|

                                                                                             
  Q         E  E  E  E  Q       E  E  E  E  Q    Q       Q    E  E  E  E  Q       E  E  E  E  Q    E  E   
-----------------------------|------------------------|------------------------|-------------------------|
-----------------------------|------------------------|------------------------|-------------------------|
--7------------7--------7----|-----7--------5----5----|--3-------3--------3----|-----3--------3----------|
--7---------7--7--7--7--7----|--7--7--7--7--5----5----|--0----0--0--0--0--0----|--0--0--0--0--0----0--0--|
--7---------7--7--7--7--7----|--7--7--7--7--5----5----|--0----0--0--0--0--0----|--0--0--0--0--0----0--0--|
--7---------7--7--7--7--7----|--7--7--7--7--5----5----|--0----0--0--0--0--0----|--0--0--0--0--0----0--0--|
  Oooo..... 


  Q    E  E   E  E  E   E       Q    E  E   E   E  E  E     Q    E  E  E  E  Q       E  E  E  E  Q    E  E   
--0-------0------0-----------|--0-------0-------0--------|--9-------9--------9----|-----9--------9----------|
--2-------2S-----4-----(4)S--|--6-------6S------9--------|--9-------9--------9----|-----9--------9----------|
--3-------3S-----5-----(5)S--|--8-------8S-----10--------|--7----7--7--7--7--7----|--7--7--7--7--7----------|
--0----0--0---0--0--0---0----|--0----0--0---0---0--0--0--|--0----0--0--0--0--0----|--0--0--0--0--0----0--0--|
--0----0--0---0--0--0---0----|--0----0--0---0---0--0--0--|--0----0--0--0--0--0----|--0--0--0--0--0----0--0--|
--0----0--0---0--0--0---0----|--0----0--0---0---0--0--0--|--0----0--0--0--0--0----|--0--0--0--0--0----0--0--|


  Q    E  E   E  E  E   E       Q    E  E   E   E  E  E     Q    E  E  E  E  Q       E  E  E  E  Q    E  E   
--0-------0------0-----------|--0-------0-------0--------|--9-------9--------9----|-----9--------9----------|
--2-------2S-----4-----(4)S--|--6-------6S------9--------|--9-------9--------9----|-----9--------9----------|
--3-------3S-----5-----(5)S--|--8-------8S-----10--------|--7----7--7--7--7--7----|--7--7--7--7--7----------|
--0----0--0---0--0--0---0----|--0----0--0---0---0--0--0--|--0----0--0--0--0--0----|--0--0--0--0--0----0--0--|
--0----0--0---0--0--0---0----|--0----0--0---0---0--0--0--|--0----0--0--0--0--0----|--0--0--0--0--0----0--0--|
--0----0--0---0--0--0---0----|--0----0--0---0---0--0--0--|--0----0--0--0--0--0----|--0--0--0--0--0----0--0--|


  E  E  E  E  E  E  E  E     E  E  E  E  E  E  E  E     E  E  E  E  E  E  E  E     E  E  E  E  E  E  E  E   
--------------------------|--------------------------|--------------------------|--------------------------|
-----------0-----------0--|-----------0--------------|-----------0-----------0--|-----------0--------------|
-----5-----6-----5-----6--|-----5-----6-----5-----5--|-----5-----6-----5-----6--|-----5-----6-----5-----5--|
--4--4--4--4--4--4--4--4--|--4--4--4--4--4--4--4--4--|--3--3--3--3--3--3--3--3--|--3--3--3--3--3--3--3--3--|
--0--0--0--0--0--0--0--0--|--0--0--0--0--0--0--0--0--|--0--0--0--0--0--0--0--0--|--0--0--0--0--0--0--0--0--|
--0--0--0--0--0--0--0--0--|--0--0--0--0--0--0--0--0--|--------------------------|--------------------------|


  E  Q    H        E     W                   Q    E  E   E  E  E   E       Q    E  E   E   E  E  E   
----------------------|-------------------|--0-------0------0-----------|--0-------0-------0--------|
----------------------|-------------------|--2-------2S-----4-----(4)S--|--6-------6S------9--------|
--5--3----------------|-------------------|--3-------3S-----5-----(5)S--|--8-------8S-----10--------|
--5--4----------------|-------------------|--0----0--0---0--0--0---0----|--0----0--0---0---0--0--0--|
--0--0----------------|-------------------|--0----0--0---0--0--0---0----|--0----0--0---0---0--0--0--|
--0--0----------------|-------------------|--0----0--0---0--0--0---0----|--0----0--0---0---0--0--0--|


  Q    E  E  E  E  Q       E  E  E  E  Q    E  E     Q    E  E   E  E  E   E       Q    E  E   E   E  E  E   
--9-------9--------9----|-----9--------9----------|--0-------0------0-----------|--0-------0-------0--------|
--9-------9--------9----|-----9--------9----------|--2-------2S-----4-----(4)S--|--6-------6S------9--------|
--7----7--7--7--7--7----|--7--7--7--7--7----------|--3-------3S-----5-----(5)S--|--8-------8S-----10--------|
--0----0--0--0--0--0----|--0--0--0--0--0----0--0--|--0----0--0---0--0--0---0----|--0----0--0---0---0--0--0--|
--0----0--0--0--0--0----|--0--0--0--0--0----0--0--|--0----0--0---0--0--0---0----|--0----0--0---0---0--0--0--|
--0----0--0--0--0--0----|--0--0--0--0--0----0--0--|--0----0--0---0--0--0---0----|--0----0--0---0---0--0--0--|


  Q    E  E  E  E  Q       E  E  E  E  Q    E  E      Q    E   E  E   E  E  E     Q    E  E  E  E  E  E   
--9-------9--------9----|-----9--------9----------|--10-------10-----12--------|--9-------9-----9--------|
--9-------9--------9----|-----9--------9----------|---9--------9------9--------|--9-------9-----9--------|
--7----7--7--7--7--7----|--7--7--7--7--7----------|---0----0---0--0---0--0--0--|--7----7--7--7--7--7--7--|
--0----0--0--0--0--0----|--0--0--0--0--0----0--0--|---0----0---0--0---0--0--0--|--0----0--0--0--0--0--0--|
--0----0--0--0--0--0----|--0--0--0--0--0----0--0--|---0----0---0--0---0--0--0--|--0----0--0--0--0--0--0--|
--0----0--0--0--0--0----|--0--0--0--0--0----0--0--|---0----0---0--0---0--0--0--|-------------------------|


   Q    E   E  E   E  E  E     Q    E  E  E  E  E  E      Q    E   E  E   E  E  E     Q    E  E  E  E  E  E   
--10-------10-----12--------|--9-------9-----9--------|--10-------10-----12--------|--9-------9-----9--------|
---9--------9------9--------|--9-------9-----9--------|---9--------9------9--------|--9-------9-----9--------|
---0----0---0--0---0--0--0--|--7----7--7--7--7--7--7--|---0----0---0--0---0--0--0--|--7----7--7--7--7--7--7--|
---0----0---0--0---0--0--0--|--0----0--0--0--0--0--0--|---0----0---0--0---0--0--0--|--0----0--0--0--0--0--0--|
---0----0---0--0---0--0--0--|--0----0--0--0--0--0--0--|---0----0---0--0---0--0--0--|--0----0--0--0--0--0--0--|
---0----0---0--0---0--0--0--|-------------------------|---0----0---0--0---0--0--0--|-------------------------|


   Q    E   E  E   E  E  E     Q    E  E  E  E  E  E     E  E  E  E  E  E  E  E     E  E  E  E  E  E  E  E   
--10-------10-----12--------|--9-------9-----9--------|--------------------------|--------------------------|
---9--------9------9--------|--9-------9-----9--------|-----------0-----------0--|-----------0--------------|
---0----0---0--0---0--0--0--|--7----7--7--7--7--7--7--|-----5-----6-----5-----6--|-----5-----6-----5-----5--|
---0----0---0--0---0--0--0--|--0----0--0--0--0--0--0--|--4--4--4--4--4--4--4--4--|--4--4--4--4--4--4--4--4--|
---0----0---0--0---0--0--0--|--0----0--0--0--0--0--0--|--0--0--0--0--0--0--0--0--|--0--0--0--0--0--0--0--0--|
---0----0---0--0---0--0--0--|-------------------------|--0--0--0--0--0--0--0--0--|--0--0--0--0--0--0--0--0--|


  E  E  E  E  E  E  E  E     E  E  E  E  E  E  E  E     E  Q    H        E     W                 
--------------------------|--------------------------|----------------------|-------------------||
-----------0-----------0--|-----------0--------------|----------------------|-------------------||
-----5-----6-----5-----6--|-----5-----6-----5-----5--|--5--3----------------|-------------------||
--3--3--3--3--3--3--3--3--|--3--3--3--3--3--3--3--3--|--5--4----------------|-------------------||
--0--0--0--0--0--0--0--0--|--0--0--0--0--0--0--0--0--|--0--0----------------|-------------------||
--------------------------|--------------------------|--0--0----------------|-------------------||

_________________

I say, It's in the arch of my back, The sun of my smile, The ride of my breasts,
The grace of my style.
I'm a woman
Back to top
View user's profile Send private message Send e-mail
Display posts from previous:   
Post new topic   Reply to topic    forums.grahamcoxon.co.uk Forum Index -> Tabs All times are GMT
Page 1 of 1

 
Jump to:  
You cannot post new topics in this forum
You cannot reply to topics in this forum
You cannot edit your posts in this forum
You cannot delete your posts in this forum
You cannot vote in polls in this forum


Powered by phpBB 2001, 2002 phpBB Group